The Pogues – If I Should Fall From Grace With God (Guitar)



The Pogues - If I Should Fall From Grace With God
Tabbed by Ben Taylor

Intro:
E|------------------------------------------------------|
B|------------------------------------------------------|
G|--2-4-2-----------------------------------------------|
D|--------4-2-4-2----------------------------2-4--2--2--|
A|----------------4-2-4-2-0--------0--0--2h4------------|
E|--------------------------2--0-2----------------------|

E|------------------------------------------------------|
B|------------------------------------------------------|
G|--2-4-2-----------------------------------------------|
D|--------4-2-4-2----------------------------2----------|
A|----------------4-2-4-2-0--------0--0--2h4---4--2--0--|
E|--------------------------2--0-2----------------------|

Verse:
(|--| = 1 measure)

|A-|A-|D-|A-|A-|A-|D-|E-|

Instrumental:

|A-|DA|A-|EA|

Chorus:
|A-|F#m|A-|D-|
|A-|D-|E-|A-|

Solo:
E|------------------------------|------------------------------------------|
B|------------------------------|------------------------------------------|
G|------------------------------|---------------2---2------4---4-----------|
D|------------------------------|----2---2---0----0---0-2----2---2---------|
A|--0--2h4-2--2h4-0--2h4-4-2-0--|-0----0---0-----------------------0--4-2--|
E|------------------------------|------------------------------------------|
(or something close. its hard to hear through all the instruments)
Posted in Guitar | Leave a comment

Blood Or Whiskey – Your Majesty (Guitar)

Blood Or Whiskey
Your Majesty
Tabbed by Ben Taylor

capo at 2nd fret.

Intro:
E|————————————————————|
B|——————————————————1-3—|
G|—-0-222-0-2-0—-0-222-0——-0-222-0-2-0—-0-222——-|
D|–2————–2———2—2————–2————-|
A|————————————————————|
E|————————————————————|

E|————————————————————|
B|———–3-1————3-1———-3-1——————|
G|—-0–222—–2—-0-222——–0-222—–2-0—222-0-2—-|
D|–2—————2————2—————2————|
A|————————————————————|
E|————————————————————|

Verse:
E|——————————————————–|
B|———1-3–1———————-1-3-1————–|
G|—0-222——–2-000-2-0——0-222——-2-0-222-0-2–|
D|-2————————2–2————————–|
A|——————————————————–|
E|——————————————————–|

Chorus:
part 1:
E|———————-|
B|–1111—3–1111——|
G|——-2———2-0–|
D|———————-|
A|———————-|
E|———————-|

part 2:
E|—-0——–0—————–0——–0—————|
B|–1—3-1–1—3-1-1111——1—3-1–1—3-1-1111—3–|
G|————————2-0————————2—-|
D|——————————————————–|
A|——————————————————–|
E|——————————————————–|

E|—-0——–0——————————–|
B|–1—3-1–1—3-1-1111———–1-3-1——-|
G|————————2-0–2222——2-0-2–|
D|———————————————-|
A|———————————————-|
E|———————————————-|

Posted in Guitar | Leave a comment

Blood Or Whiskey – Prospect Hill (Guitar)

Blood Or Whiskey
Prospect Hill.
Tabbed by Ben Taylor

I know parts (mainly the chorus) are wrong. either shoot me or send me the corrections.

Verse:
E|——0-222-3-2-0—-0-222-0———-0-222-3-5-2—0-2-0——–|
B|—-3————-3———-3-0-2-3————–3——-3-2-3–|
G|–2————————————————————–|
D|—————————————————————–|
A|—————————————————————–|
E|—————————————————————–|

Chorus:
E|–0–0——-5–7777-5-3-2-3——————————|
B|——-3-2-0——————3333-2-0——3333———-|
G|—————————————2———2——–|
D|—————————————–4———4-2-0–|
A|———————————————————-|
E|———————————————————-|

Intrumental:
E|———————————————————0–222-3-5-2—–0-2-0——|
B|–3-2-000——-0–3-2-000———-3-2-000——-0—-3—————3——-3-2-3-|
G|———-2—2————2—————-2—2—-2——————————-|
D|————4—————-4-2-0————4————————————–|
A|————————————————————————————-|
E|————————————————————————————-|

Posted in Guitar | Leave a comment

Blood Or Whiskey – LaLaLa (Guitar)



Blood Or Whiskey - LaLaLa
Tabbed by Ben Taylor

Really Simple Song

Verse:
E G D A

Main Riff:

E|-0--0-0-3--3-3-2-3-2-0--|
Posted in Guitar | Leave a comment

Blood Or Whiskey – King of the Fairys or Western Junk [medley] (Guitar)

Blood Or Whiskey – King of the Fairys

Blood Or Whiskey
King of the Fairys / Western Junk (medley)
Tabbed by Ben Taylor

Part 1:
E|———————————————————-|
B|——————–000———–000———————|
G|————0—0-2—–2-0—0-2———0——0——–|
D|—-2-0-2-4—4————-4———2-4—-2-4—4-2-0–|
A|–2——————————————————-|
E|———————————————————-|

E|————————————————–|
B|——————–0—–0-3–3-1-0————–|
G|————0—0-2—2-0————–0———-|
D|—-2-0-2-4—4———————-2—4-2-0-2–|
A|–2———————————————–|
E|————————————————–|

Part 2:
E|—-0–0——0-2-3-5-3-2-0–2-0————–0————–|
B|–3——-0-3——————–0–0—0-2-3—3-2-0-2-3-0–|
G|————————————–2———————-|
D|————————————————————-|
A|————————————————————-|
E|————————————————————-|

E|–0–0——0-2-3-5-3-2-0-2-0——-0-3-2-0—2-0-0—0—–|
B|——–0-3——————-3-0-3———3——-3——-|
G|————————————————————|
D|————————————————————|
A|————————————————————|
E|————————————————————|

E|–2-3–3-0-2–2———0———————————|
B|—————-3-0-2-3—3-0———0-2-3-0————-|
G|——————————2—0-2———2—0——-|
D|——————————–4—————4—4-2-0-|
A|———————————————————-|
E|———————————————————-|

E|—————–0–0—-0-2-0———————–|
B|–0————0——-3——-0–0——————|
G|———–0-2———————–2-0————-|
D|—-2–2-4——————————-4-2–2-0-2–|
A|—————————————————–|
E|—————————————————–|

Western Junk:

Part 1:

E|—————–|—————–|—————–|—————-|
B|—————–|—————–|—————–|—————-|
G|————–0–|—————–|————-0-2-|-4–44-2-0——|
D|–2–22-0-2-4–2-|-0–00-2-0—–0-|-2–22-0-2-4—–|———–2-2–|
A|—————–|———–2-2—|—————–|—————-|
E|—————–|—————–|—————–|—————-|

Part 2:
E|——————|—————–|—————–|-0-2–22-0——-|
B|————–2-3-|—————–|————-2-3-|———–3—–|
G|–2-4–44-2-4—–|-4-2–22-4-2—–|-2-4–44-2-4—–|————-4-4-|
D|——————|————-4-4-|—————–|—————–|
A|——————|—————–|—————–|—————–|
E|——————|—————–|—————–|—————–|

Part 3:

E|–0-2-22-0-2-4-5-|-2-0–00-2-0—0–|-0-2–22-0-2-4-5-|-2-0–00-2-0——|
B|—————–|————-3—-|—————–|————-3-0–|
G|—————–|——————|—————–|——————|
D|—————–|——————|—————–|——————|
A|—————–|——————|—————–|——————|
E|—————–|——————|—————–|——————|

Posted in Guitar | Leave a comment

Alistar Hulet – The Old Divide And Rule (Guitar)



Alistar Hulet - The Old Divide And Rule

Capo at first fret

Intro:
E|---------------------|---------------------|
B|---------------------|---------------------|
G|-4-4-4-2---2-4-2-----|-------2-------------|
D|---------4-------4-2-|-4-2-4---4-2-0-------|
A|---------------------|---------------2-0-2-|
E|---------------------|---------------------|
       |-3-|     |-3-|   |-3-| |-3-|
Verse:
E|----------------|----------------|----------------|---------------|
B|----------------|----------------|----------------|---------------|
G|----------------|----------------|----------------|---------------|
D|-4--------0-2-4-|-2----------2---|-4--------0-2-4-|-2-------------|
A|----2-2-4-------|----0-0-2-4---4-|----2-2-4-------|----0-0-4-2--2-|
E|----------------|----------------|----------------|---------------|

E|---------------|----------------|---------------|---------------|
B|---------------|----------------|---------------|---------------|
G|-4--4--4---4---|-----2--4-2-4-2-|-4--4--4---4---|---------------|
D|-4--4----4---4-|-2h4------------|-4--4----4---4-|-4-4-2-0-------|
A|-2--2----------|----------------|-2--2----------|---------2--2--|
E|---------------|----------------|---------------|---------------|

Chorus:
E|----|
B|----|
G|-4--|
D|-4--|
A|-2--|
E|----|

E|-------------|-------------|----------------|---------------|
B|-------------|-------------|----------------|---------------|
G|----4--2-----|----2-----4--|----------------|---------------|
D|----------4--|-2-----4--4--|-4--------0-2-4-|-2-------2--2--|
A|-2-----------|----------2--|----2-2-4-------|---4-0-4-------|
E|-------------|-------------|----------------|---------------|

E|-------------|-------------|----------------|---------------|
B|-------------|-------------|----------------|---------------|
G|----4--2-----|----2-----4--|----------------|---------------|
D|----------4--|-2-----4--4--|-4--------0-2-4-|-2-------------|
A|-2-----------|----------2--|----2-2-4-------|----0-0-4-2--2-|
E|-------------|-------------|----------------|---------------|
Posted in Guitar | Leave a comment

The Tossers – Maidrin Rua (Guitar)



The Tossers - Maidrin Rua
Tabbed by Goodbar.

e|--3-3-2-----------------------------------------------|
B|--------5-3-5-3-0-3-3-0-------0-1-3-1-0-------0-------|
G|------------------------2-0-2-----------2-2-2---2-0---|
D|------------------------------------------------------|
A|------------------------------------------------------|
E|------------------------------------------------------|

I'll Tell Me Ma:
2/4

Key: D

             I’ll…     ma…          home           the…                     they…

e|----------|-----2-3-|-3-3-2-3-|-2-0-0-2-|-0-----2-|-----2-3---|
B|--------3-|---3-----|---------|---------|---3-3---|---3-------|
G|----------|-2-------|---------|---------|---------|-2---------|
D|----------|---------|---------|---------|---------|-----------|
A|----------|---------|---------|---------|---------|-----------|
E|----------|---------|---------|---------|---------|-----------|

comb…               I…         she…        she…         she…

e|--3-3-2-3-|-2-0-0-2-|-0------|-5-5-5-2-|-3-3-3-0-|-2-22-2-----|
B|----------|---------|---3-3--|---------|---------|--------3---|
G|----------|---------|--------|---------|---------|------------|
D|----------|---------|--------|---------|---------|------------|
A|----------|---------|--------|---------|---------|------------|
E|----------|---------|--------|---------|---------|------------|

 Belfast…    she…         one…       please…      who…

e|--0-------|-5-5-5-2-|-3-3-3--|-2----0---|--------|
B|----2-0---|---------|--------|---33---2-|-3-3-3--|
G|--------2-|---------|--------|----------|--------|
D|----------|---------|--------|----------|--------|
A|----------|---------|--------|----------|--------|
E|----------|---------|--------|----------|--------|

 D                   G    D               A                      D      

I'll tell me ma when I get home, the boys won't leave the girls alone, 

                 G      D               A                  D                              

Pulled me hair, stole me comb but that's alright till I go home. 

                 G             D                             A                       

She is handsome, she is pretty she is the Belle of Belfast city, 

D                 G             D                       A      D    

She is a courtin' one two three, Please can you tell me who is she?

Albert Mooney says he loves her, all the boys are fightin' for her, 

Knock at the door, ring at the bell, sayin' "Oh, me true love, are you well?" 

Out she comes, as white as snow, rings on her fingers, bells on her toes 

Ould Johny Morrissey says she'll  die, 

 If she doesn't get the fella with the roving eye. 

Let the wind and the rain and the hail blow high, 

And the snow comes a travelin' from the sky, 

She's as nice as an apple pie, she'll get her own lad by and by, 

When she gets a lad of her own, she won't tell her ma when she gets home. 

So let them all come as they will, It's Albert Mooney she loves still.
Posted in Guitar | Leave a comment