The Pogues – Streams of Whiskey (Guitar)




The Pogues - Streams of Whiskey
Red Roses for Me
Tabbed by Ben

Intro:
E|---------------|-----------------|----------------|-------------------|
B|---------------|-----------------|--------3-2-0---|-------------------|
G|---------------|---------------2-|--------------2-|-0-----------------|
D|-0-2-0--0-2-0--|-0-2-4--44-2-4---|-0-2-4----------|---4-2-0-2-02-4-2--|
A|---------------|-----------------|----------------|-------------------|
E|---------------|-----------------|----------------|-------------------|

E|---------------|-----------------|----------------|-------------------|
B|---------------|-----------------|--------3-2-0---|-------------------|
G|---------------|---------------2-|--------------2-|-0-----------------|
D|-0-2-0--0-2-0--|-0-2-4--44-2-4---|-0-2-4----------|---4-2-0-2-02-4-0--|
A|---------------|-----------------|----------------|-------------------|
E|---------------|-----------------|----------------|-------------------|

Verse:
|D-|GD|D-|GA|D-|GD|DG|AD|

Chorus:
E|---------------|-----------------|----------------|-------------------|
B|---------------|-3-2-0---0-----0-|-3--2--0--------|-------------------|
G|---------------|-----------2-----|----------2-0---|-------------------|
D|-0-2-0--2-0----|-----------------|----------------|-4-2--22-4-2-------|
A|---------------|-----------------|----------------|-------------------|
E|---------------|-----------------|----------------|-------------------|

E|---------------|-----------------|----------------|-------------------|
B|---------------|-3-2-0---0-----0-|-3--2--0--------|-------------------|
G|---------------|-----------2-----|----------2-0---|-------------------|
D|-0-2-0--2-0----|-----------------|----------------|-4-2--22-4-0-------|
A|---------------|-----------------|----------------|-------------------|
E|---------------|-----------------|----------------|-------------------|
Advertisements

About thewildirishrose

Banjo, Mandolin, Bass, Guitar, Tin Whistle Tabs and Other Irish Music Related Things.
This entry was posted in Guitar. Bookmark the permalink.

Leave a Reply

Fill in your details below or click an icon to log in:

WordPress.com Logo

You are commenting using your WordPress.com account. Log Out / Change )

Twitter picture

You are commenting using your Twitter account. Log Out / Change )

Facebook photo

You are commenting using your Facebook account. Log Out / Change )

Google+ photo

You are commenting using your Google+ account. Log Out / Change )

Connecting to %s