Traditional – Rocky Road To Dublin (Mandolin)



Rocky Road To Dublin
Traditional

9/8
Dmin
E|----------------|----------------|-----------------|-----------------|
A|-0-3-0----------|----------------|-0-3-0-----------|-----------------|
D|-------5--3-0.--|----0-0--0-3--5-|-------5--3-0--3-|-2-------0-2-3-5-| x2
G|----------------|-2--------------|-----------------|----5-5----------|

E|----------------|----------------|-----------------|-----------------|
A|-0-5-5-5--2-3.--|-0-5-5-5--2-3.--|-0-5-5-5--2-3--0-|-----------------|
D|----------------|----------------|-----------------|-5--2----0-2-3-5-| x2
G|----------------|----------------|-----------------|------5----------|

The pogues play this tune one fifth up (in A instead of D) from the traditional key.
DKM plays it 1 step up in Em.

About thewildirishrose

Banjo, Mandolin, Bass, Guitar, Tin Whistle Tabs and Other Irish Music Related Things.
This entry was posted in Mandolin Tabs. Bookmark the permalink.

Leave a Reply

Fill in your details below or click an icon to log in:

WordPress.com Logo

You are commenting using your WordPress.com account. Log Out / Change )

Twitter picture

You are commenting using your Twitter account. Log Out / Change )

Facebook photo

You are commenting using your Facebook account. Log Out / Change )

Google+ photo

You are commenting using your Google+ account. Log Out / Change )

Connecting to %s