The Pogues Battle March Medley (Mandolin)


Battle March Medley
The Pogues

Tabbed by Bjart Sod

A Section

E----------------------------------------------
A----------------------------------------------
D-7-5-7-0-----7-5-7------7-5-7-0------0-2------
G-------------------5---------------5-----2----

Repeat A Section

B Section
2/4
  1 & 2 &   1 & 2 &   1 & 2 &   1 & 2 &
E---------|---------|---------|---------|
A---------|---------|---------|---------|
D-----0---|-2---2-4-|-2-0-----|-5---4-2-|
G-2-4-----|---------|-----4-0-|---------|

  1 & 2 &   1 & 2 &   1 & 2 &   1 & 2 &
E---------|---------|---------|---------|
A---------|---------|---------|---------|
D-----0---|-2-4-2---|-0-------|-------0-|
G-2-4-----|---------|-------4-|-0-2-4---|

  1 & 2 &   1 & 2 &   1 & 2 &   1 & 2 &
E---------|---------|---------|---------|
A---------|---------|---------|---------|
D-----0---|-2---2-4-|-2-0-----|-5---4-2-|
G-2-4-----|---------|-----4-0-|---------|

  1 & 2 &   1 & 2 &   1 & 2 &   1 & 2 &
E---------|---------|---------|---------|
A---------|---------|---------|---------|
D-----0---|-2-4-2---|-0-------|-------0-|
G-2-4-----|---------|-------4-|-0-2-4---|

C Section
2/4
  1 & 2 &   1 & 2 &    1 & 2 &   1 & 2 &
E---------|----------|---------|---------|
A-----0---|-0---0-2--|-0-------|---------|
D-2-------|----------|---5-2-4-|-5---2-0-|
G---------|----------|-------------------|

  1 & 2 &   1 & 2 &   1 & 2 &   1 & 2 &
E---------|---------|---------|---------|
A-----0---|-0-2-0---|---------|---------|
D-2-------|---------|-5-----4-|-0-2-4-5-|
G---------|---------|---------|---------|

  1 & 2 &   1 & 2 &    1 & 2 &   1 & 2 &
E---------|----------|---------|---------|
A-----0---|-0---0-2--|-0-------|---------|
D-2-------|----------|---5-2-4-|-5---2-0-|
G---------|----------|-------------------|

  1 & 2 &   1 & 2 &   1 & 2 &   1 & 2 &
E---------|---------|---------|---------|
A-----0---|-0-2-0---|---------|---------|
D-2-------|---------|-5-----4-|-0-------|
G---------|---------|---------|---------|

Pickup to B Section
  1 & 2 &
E---------|
A---------|
D-5-3-2-0-|
G---------|

Repeat B Section

Repeat C Section

Repeat A Section

D Section
9/8
  1 2 3 4 5 6 7 8 9   1 2 3 4 5 6 7 8 9
E-------------------|-------------------|
A-0-----------------|-0-----------2-4-5-|
D-----5-4-2-0-5-----|-----5-4-2-0-------|
G-------------------|-------------------|

  1 2 3 4 5 6 7 8 9   1 2 3 4 5 6 7 8 9
E-------------------|-------------------|
A-0-----------------|-0-0-0-0-----3-2-0-|
D-----5-4-2-0-5-----|---------5-4-------|
G-------------------|-------------------|

     Play twice

E Section
9/8
  1 2 3 4 5 6 7 8 9   1 2 3 4 5 6 7 8 9
E-------------------|-------------------|
A-------------------|-------------------|
D-2---2-2-0-2-5---4-|-2---2-2-0-2-0-----|
G-------------------|-------------------|

  1 2 3 4 5 6 7 8 9   1 2 3 4 5 6 7 8 9
E-------------------|-------------------|
A-------------------|-------------------|
D-2---2-2-0-2-5---4-|-5---5-----4-5---4-|
G-------------------|-------------------|

	Play four times

Repeat D Section

F Section
6/8
  1 2 3 4 5 6   1 2 3 4 5 6   1 2 3 4 5 6  1 2 3 4 5 6
E-------------|-------------|---------------|-----------|
A-------------|-------------|---------------|-----------|
D-----0-2-2-2-|-2-0---5-4-2-|-----0-2-4-2-0-|-----------|
G-2-4---------|-----4-------|-2-4-----------|-4-2-0-2-4-|

  1 2 3 4 5 6   1 2 3 4 5 6   1 2 3 4 5 6  1 2 3 4 5 6
E-------------|-------------|---------------|-----------|
A-------------|-------------|---------------|-----------|
D-----0-2-2-2-|-2-0---5-4-2-|-----0-2-4-2-0-|-----------|
G-2-4---------|-----4-------|-2-4-----------|-4-2-0-----|

G Section
  1 2 3 4 5 6   1 2 3 4 5 6   1 2 3 4 5 6   1 2 3 4 5 6
E-------------|-------------|-------------|-------------|
A---0-0-0-2-0-|-------------|-------0-2-0-|-------------|
D-2-----------|-5-2-0-4-2-0-|-2-4-5-------|-5-4-2-0-2-4-|
G-------------|-------------|-------------|-------------|

  1 2 3 4 5 6   1 2 3 4 5 6   1 2 3 4 5 6   1 2 3 4 5 6
E-------------|-------------|-------------|-------------|
A---0-0-0-2-0-|-------------|-------0-2-0-|-------------|
D-2-----------|-5-2-0-4-2-0-|-2-4-5-------|-5-4-2-0-----|
G-------------|-------------|-------------|-------------|

Repeat F

Repeat G

Repeat D

H Section
6/8
  1 2 3 4 5 6   1 2 3 4 5 6   1 2 3 4 5 6   1 2 3 4 5 6
E-------------|-------------|-------------|-------------|
A-------------|-------------|-------------|-------------|
D-0-2-4-5-2---|-0-2-0-0-----|-0-2-4-5-2---|-0-2-0-0-----|
G-----------6-|-------------|-----------6-|-------------|

  1 2 3 4 5 6   1 2 3 4 5 6   1 2 3 4 5 6   1 2 3 4 5 6
E-------------|-------------|-------------|-------------|
A-------------|-------------|-------------|-------------|
D-0-2-4-5-2-7-|-5-2-0---0-2-|-4-2-4-5-2---|-0-2-0-0-----|
G-------------|-------6-----|-----------6-|-------------|

  1 2 3 4 5 6   1 2 3 4 5 6   1 2 3 4 5 6   1 2 3 4 5 6
E-------------|-------------|-------------|-------------|
A-------------|-------------|-------------|-------------|
D-0-2-4-5-2---|-0-2-0-0-----|-0-2-4-5-2---|-0-2-0-0-----|
G-----------6-|-------------|-----------6-|-------------|

  1 2 3 4 5 6   1 2 3 4 5 6   1 2 3 4 5 6   1 2 3 4 5 6
E-------------|-------------|-------------|-------------|
A-------------|-------------|-------------|-------------|
D-0-2-4-5-2-7-|-5-2-7-5-2-7-|-5-2-0---0-2-|-4-2-4-5-2---|
G-------------|-------------|-------6-----|-----------6-|

   1 2 3 4 5 6
E--------------|
A--------------|
D-0-2-0-0------|
G--------------|

I Section
  1 2 3 4 5 6   1 2 3 4 5 6   1 2 3 4 5 6   1 2 3 4 5 6
E-------------|-------------|-------------|-------------|
A-------------|-------------|-------------|-------------|
D-2---2-2-4-2-|-0-----------|-------0-2-4-|-5-2---0-2-4-|
G-------------|---6-4-2-----|-2-4-6-------|-----6-------|

  1 2 3 4 5 6   1 2 3 4 5 6   1 2 3 4 5 6   1 2 3 4 5 6
E-------------|-------------|-------------|-------------|
A-------------|-------------|-------------|-------------|
D-2---2-2-4-2-|-0-----------|-------0-2-4-|-5-2---0-----|
G-------------|---6-4-2-----|-2-4-6-------|-----6-------|

    Play twice

Ending

  1 2 3 4 5 6   1 2 3 4 5 6
E-------------|-------------|
A-------------|-------------|
D-0-2-4-5-2---|-0-2-0-0-----|
G-----------6-|-------------|
Advertisements

About thewildirishrose

Banjo, Mandolin, Bass, Guitar, Tin Whistle Tabs and Other Irish Music Related Things.
This entry was posted in Mandolin Tabs. Bookmark the permalink.

Leave a Reply

Fill in your details below or click an icon to log in:

WordPress.com Logo

You are commenting using your WordPress.com account. Log Out /  Change )

Google+ photo

You are commenting using your Google+ account. Log Out /  Change )

Twitter picture

You are commenting using your Twitter account. Log Out /  Change )

Facebook photo

You are commenting using your Facebook account. Log Out /  Change )

Connecting to %s